Tomorrow's Tears

Tomorrow's Tears


Transcription: Par Svensson 

Riff A:

e |-----0-----0-----0-----0--|
B |---4-----4-----4-----4----|
G |-4-----3-----2-----1------|          Repeat 8 times
D |--------------------------|
A |--------------------------|
E |--------------------------|


Riff B:

e |----4---4---4---4-2----4---4---4---2-------
B |-2----2---2---2-----5----2---2---5---5-5-4-
G |-------------------------------------------
D |-------------------------------------------
A |-------------------------------------------
E |-------------------------------------------


    -----------------------------------0-4--|
    -2-----0-------------2-0---0---2-4------|
    ---1-----3-1-3---1-3-----3--------------|
    -----2---------4------------------------|
    ----------------------------------------|
    ----------------------------------------|


The playing order is

Riff A
Riff B
Riff A
Riff B x2
Riff A
Riff B x2
2nd half of B
(some single tones)

Note: 
The timing is quite hard to write down, but listening to the CD should make
it obvious. There are also some embellishments at the end that I've missed. 
The lyrics are, as usual, undecipherable, give or take a few "You're the 
only thing I've ever loved".