Leaves of Summer

Leaves of Summer


Transcription: Mike Dare

Intro: 
e|---------------------------|  This is actually the piano part that repeats 
B|---------------------------|  throughout the intro.
G|---------------7-------9---|
D|------9------7-------9-----|
A|----9------5-------7-------|
E|--7------------------------|

Lead Guitar in Intro:
e|----------------------------------------------------------|  
B|----------------------------------------------------------|
G|--9--7--7-------------------------------------------------|
D|----------6\7-9--9-9--6\7-10/9--9-9--6\7-10/9--9-9--6\7---|
A|----------------------------------------------------------|
E|----------------------------------------------------------|

Chorus:  B(7998xx)
         A(5776xx)
         E(0221xx)

Bridge 1:
e|---------------------------|  
B|---------------------------| 
G|---------------------------|
D|------9------8------7------|
A|----9------8------7--------|
E|--7------6------5----------|

Chorus: B, A, E

Bridge 2:
e|---------------------------|  
B|---------------------------|  
G|-----------------7-7-6-6---|
D|--9----------7-------------|
A|----9------7---------------|
E|------7--5-----------------|

Outro:  B(799877) 
       Bb(688766)
        A(577655)