Golden

Golden


Transcription: Mike Dare

Capo on fret 1

Most of this song is just Riff1 x2, Riff2 x2

e|-----------------------|  Riff1
B|-----------------------|
G|------0-0-------0-0----|
D|------------1----------|
A|--3-3-----3---3--------|
E|-----------------------|

e|-----------------------|  Riff2
B|-----------------------|
G|-----------------------|
D|------4-4-------4-4----|
A|--2-2-----2p3-2--------|
E|-----------------------|


Then for the outro of the song, Riff3 is thrown in...

e|-----------------------|  Riff3
B|-----------------------|
G|------1-1-------1-1----|
D|------------1----------|
A|--3-3-----3---3--------|
E|-----------------------|

The outro goes as follows:  Riff1 x2
                            Riff3 x2
                            Riff1 x2
                            Riff2 x2

Song ends on a strum of Riff1