Cloudless

Cloudless


Transcription: Par Svensson 

Capo 1

e |--------------------------------------------------
B |-----------------------0------------------------0-
G |---2---0-------2---0--------2---0-------2---0-----
D |-0---0---0-4-0---0---0----0---0---0-4-0---0---0---
A |--------------------------------------------------
E |--------------------------------------------------

   --------------------------------------------------|
   --------------------------------------------------|
   ---0-----------0-------0----0-----------0-------0-|
   -------4---2-------4------------4---2-------4-----|
   -3---3---3---3---3---3----3---3---3---3---3---3---|
   --------------------------------------------------|

Repeat throughout song.

A different but more difficult 
fingering of the first half is:

e |--------------------------------------------------
B |-----------------------0------------------------0-
G |---2---0-------2---0--------2---0-------2---0-----
D |-----------4------------------------4-------------
A |-5---5---5---5---5---5----5---5---5---5---5---5---
E |--------------------------------------------------

...which sounds slightly better as 
it leaves one more note ringing.