Are You Gone?

Are You Gone?


Transcription: Mike Dare

These are the basic chords for "Are You Gone?".  I didn't
transcribe the exact picking pattern because it would be 
too much of a pain to put on paper and wouldn't be worth it. 
Play along with the cd and it will be easy to pick up the 
rest.

CAPO on 4

  Are you gone?  Did you just fly away?  The sun is gone away. 
e---------4------------------------3-------------3--4-----0--
B---------0------------------------0-------------0--0-----1--
G---------------------------------------------------------0--
D------------------------------------------------------------
A------------------------------------------------------------
E------------------------------------------------------------


  And I can't seem to find my way.
e---------------------0-------------------------------------
B---------------------1-------------------------------------
G---------------------2-------------------------------------
D-----------------------------------------------------------
A-----------------------------------------------------------
E-----------------------------------------------------------